Guitar Scale, key of A Major Pentatonic




Intervals of the (A) Major Pentatonic Scale are: W-W-WH-W-WH steps.

The notes of the A Major Pentatonic Scale are: (A) (C  ) (D  ) (F  ) (G  ).


e|----------------------------------------------------------------------------------
B|----------------------------------------------------------------------------------
G|--------------0--3--'--3--0-------------------------------------------------------
D|--------0--3-----------------3--0-------------------------------------------------
A|--1--3-----------------------------3--1-------------------------------------------
E|----------------------------------------------------------------------------------


    A Maj Pentatonic Tab: (1a)1b)1c)1d)1e)1f)(2a)2b)2c)2d)2e)2f)2g)2h)2i)(3a)3b)3c)(0a)0b)

e|----------------------------------------------------------------------------------
B|----------------------------------------------------------------------------------
G|-----------------3--'--3----------------------------------------------------------
D|-----------3--5-----------5--3----------------------------------------------------
A|-----3--5-----------------------5--3----------------------------------------------
E|--6-----------------------------------6-------------------------------------------


    A Maj Pentatonic Tab: (1a)1b)1c)1d)1e)1f)(2a)2b)2c)2d)2e)2f)2g)2h)2i)(3a)3b)3c)(0a)0b)

e|----------------------------------------------------------------------------------
B|----------------------------------------------------------------------------------
G|----------------------------------------------------------------------------------
D|--------------5--8--'--8--5-------------------------------------------------------
A|--------5--8-----------------8--5-------------------------------------------------
E|--6--8-----------------------------8--6-------------------------------------------


    A Maj Pentatonic Tab: (1a)1b)1c)1d)1e)1f)(2a)2b)2c)2d)2e)2f)2g)2h)2i)(3a)3b)3c)(0a)0b)

e|----------------------------------------------------------------------------------
B|----------------------------------------------------------------------------------
G|----------------------------------------------------------------------------------
D|----------------------------------------------------------------------------------
A|--------------------13--'--13-----------------------------------------------------
E|--6--8--10--13--15-------------15--13--10--8--6-----------------------------------


    A Maj Pentatonic Tab: (1a)1b)1c)1d)1e)1f)(2a)2b)2c)2d)2e)2f)2g)2h)2i)(3a)3b)3c)(0a)0b)

e|----------------------------------------------------------------------------------
B|----------------------------------------------------------------------------------
G|----------------------------------------------------------------------------------
D|-----------3--5--8--'--8--5--3----------------------------------------------------
A|--1--3--5-----------------------5--3--1-------------------------------------------
E|----------------------------------------------------------------------------------


    A Maj Pentatonic Tab: (1a)1b)1c)1d)1e)1f)(2a)2b)2c)2d)2e)2f)2g)2h)2i)(3a)3b)3c)(0a)0b)

e|----------------------------------------------------------------------------------
B|----------------------------------------------------------------------------------
G|----------------------------------------------------------------------------------
D|----------------------------------------------------------------------------------
A|--1--3--5--8--10--13--'--13--10--8--5--3--1---------------------------------------
E|----------------------------------------------------------------------------------


    A Maj Pentatonic Tab: (1a)1b)1c)1d)1e)1f)(2a)2b)2c)2d)2e)2f)2g)2h)2i)(3a)3b)3c)(0a)0b)

e|--------------3--6--'--6--3-------------------------------------------------------
B|--------3--6-----------------6--3-------------------------------------------------
G|--3--5-----------------------------5--3-------------------------------------------
D|----------------------------------------------------------------------------------
A|----------------------------------------------------------------------------------
E|----------------------------------------------------------------------------------


    A Maj Pentatonic Tab: (1a)1b)1c)1d)1e)1f)(2a)2b)2c)2d)2e)2f)2g)2h)2i)(3a)3b)3c)(0a)0b)

e|-----------------6--'--6----------------------------------------------------------
B|-----------6--8-----------8--6----------------------------------------------------
G|-----5--7-----------------------7--5----------------------------------------------
D|--8-----------------------------------8-------------------------------------------
A|----------------------------------------------------------------------------------
E|----------------------------------------------------------------------------------


    A Maj Pentatonic Tab: (1a)1b)1c)1d)1e)1f)(2a)2b)2c)2d)2e)2f)2g)2h)2i)(3a)3b)3c)(0a)0b)

e|----------------------------------------------------------------------------------
B|----------------------11--'--11---------------------------------------------------
G|--------------10--12-------------12--10-------------------------------------------
D|------10--12-----------------------------12--10-----------------------------------
A|--13---------------------------------------------13-------------------------------
E|----------------------------------------------------------------------------------


    A Maj Pentatonic Tab: (1a)1b)1c)1d)1e)1f)(2a)2b)2c)2d)2e)2f)2g)2h)2i)(3a)3b)3c)(0a)0b)

e|----------------------------------------------------------------------------------
B|----------------------------------------------------------------------------------
G|------------------12--15--'--15--12-----------------------------------------------
D|----------12--15---------------------15--12---------------------------------------
A|--13--15-------------------------------------15--13-------------------------------
E|----------------------------------------------------------------------------------


    A Maj Pentatonic Tab: (1a)1b)1c)1d)1e)1f)(2a)2b)2c)2d)2e)2f)2g)2h)2i)(3a)3b)3c)(0a)0b)

e|----------------------------------------------------------------------------------
B|----------------8--11--'--11--8---------------------------------------------------
G|---------7--10-------------------10--7--------------------------------------------
D|--8--10---------------------------------10--8-------------------------------------
A|----------------------------------------------------------------------------------
E|----------------------------------------------------------------------------------


    A Maj Pentatonic Tab: (1a)1b)1c)1d)1e)1f)(2a)2b)2c)2d)2e)2f)2g)2h)2i)(3a)3b)3c)(0a)0b)

e|-----------1--3--6--'--6--3--1----------------------------------------------------
B|-----1--3-----------------------3--1----------------------------------------------
G|--3-----------------------------------3-------------------------------------------
D|----------------------------------------------------------------------------------
A|----------------------------------------------------------------------------------
E|----------------------------------------------------------------------------------


    A Maj Pentatonic Tab: (1a)1b)1c)1d)1e)1f)(2a)2b)2c)2d)2e)2f)2g)2h)2i)(3a)3b)3c)(0a)0b)

e|----------------------------------------------------------------------------------
B|----------------------------------------------------------------------------------
G|-------------10--12--15--'--15--12--10--------------------------------------------
D|--8--10--12-----------------------------12--10--8---------------------------------
A|----------------------------------------------------------------------------------
E|----------------------------------------------------------------------------------


    A Maj Pentatonic Tab: (1a)1b)1c)1d)1e)1f)(2a)2b)2c)2d)2e)2f)2g)2h)2i)(3a)3b)3c)(0a)0b)

e|----------------------------------------------------------------------------------
B|-----------6--8--11--'--11--8--6--------------------------------------------------
G|--3--5--7-------------------------7--5--3-----------------------------------------
D|----------------------------------------------------------------------------------
A|----------------------------------------------------------------------------------
E|----------------------------------------------------------------------------------


    A Maj Pentatonic Tab: (1a)1b)1c)1d)1e)1f)(2a)2b)2c)2d)2e)2f)2g)2h)2i)(3a)3b)3c)(0a)0b)

e|----------------------------------------------------------------------------------
B|----------------------------------------------------------------------------------
G|--3--5--7--10--12--15--'--15--12--10--7--5--3-------------------------------------
D|----------------------------------------------------------------------------------
A|----------------------------------------------------------------------------------
E|----------------------------------------------------------------------------------


    A Maj Pentatonic Tab: (1a)1b)1c)1d)1e)1f)(2a)2b)2c)2d)2e)2f)2g)2h)2i)(3a)3b)3c)(0a)0b)

e|--------------13--15--+--'--+--15--13---------------------------------------------
B|------13--15---------------------------15--13-------------------------------------
G|--15-------------------------------------------15---------------------------------
D|----------------------------------------------------------------------------------
A|----------------------------------------------------------------------------------
E|----------------------------------------------------------------------------------


    A Maj Pentatonic Tab: (1a)1b)1c)1d)1e)1f)(2a)2b)2c)2d)2e)2f)2g)2h)2i)(3a)3b)3c)(0a)0b)

e|--------------13--15--+--'--+--15--13---------------------------------------------
B|--11--13--15---------------------------15--13--11---------------------------------
G|----------------------------------------------------------------------------------
D|----------------------------------------------------------------------------------
A|----------------------------------------------------------------------------------
E|----------------------------------------------------------------------------------


    A Maj Pentatonic Tab: (1a)1b)1c)1d)1e)1f)(2a)2b)2c)2d)2e)2f)2g)2h)2i)(3a)3b)3c)(0a)0b)

e|--6--8--10--13--15--+--'--+--15--13--10--8--6-------------------------------------
B|----------------------------------------------------------------------------------
G|----------------------------------------------------------------------------------
D|----------------------------------------------------------------------------------
A|----------------------------------------------------------------------------------
E|----------------------------------------------------------------------------------


    A Maj Pentatonic Tab: (1a)1b)1c)1d)1e)1f)(2a)2b)2c)2d)2e)2f)2g)2h)2i)(3a)3b)3c)(0a)0b)

e|----------------------------------------------------------------------------------
B|---------------------------------------------------------------------------------
G|---------------------------------------------------------------------------------
D|---------------------------------------------------------------------------------
A|--1-----------------------------------1------------------------------------------
E|-----3--1--+--+--+--'--+--+--+--1--3---------------------------------------------


    A Maj Pentatonic Tab: (1a)1b)1c)1d)1e)1f)(2a)2b)2c)2d)2e)2f)2g)2h)2i)(3a)3b)3c)(0a)0b)

e|----------------------------------------------------------------------------------
B|----------------------------------------------------------------------------------
G|----------------------------------------------------------------------------------
D|----------------------------------------------------------------------------------
A|----------------------------------------------------------------------------------
E|--6--3--1--+--+--+--'--+--+--+--1--3--6-------------------------------------------


    A Maj Pentatonic Tab: (1a)1b)1c)1d)1e)1f)(2a)2b)2c)2d)2e)2f)2g)2h)2i)(3a)3b)3c)(0a)0b)


The A Major Pentatonic Scale includes the 1st(A) 2nd(C) 3rd(D) 5th(F) & 6th(G) notes of the Major Scale (ionian diatonic). For the Major Pentatonic Scale in the key of A, the distances on the guitar fretboard from each preceding tone to the next higher note of the major pentatonic scale are: whole step (A-C), whole step (C-D), whole and a half step (D-F), whole step (F-G); whole and a half step (G-A).


The A Major Pentatonic Scale notes of the chromatic octave can be located by number of steps to the scale tone, and also by their ionian diatonic interval from the key tone; A. Refer to the next line to find any of the notes of the A Major Pentatonic Scale by its interval from the root note. The notes of the A (A sharp) Major Pentatonic Scale are, ascending by step/interval from the root note; A- root note (Prime), whole step (Maj2) -C, two steps (Maj3) -D, three-and-a-half steps (Perf5) -F, four-and-a-half steps (Maj6) -G.


With the tonic of the Major Pentatonic Scale on A, the note an octave lower than each of the tones of the scale is (an) interval descending from the tonic: for A: six step (octave), C: five steps (aug6), D: four steps (aug5), F: two and a half steps (perf4), G: whole and a half step (aug2). This descending interval from the tonic (A) locates the note an octave lower in pitch than the tone of the A Major Pentatonic Scale listed.




This easy guitar scale reference details the intervals and notes of the A Major Pentatonic Scale at a glance:
» The text on the practice page lists the notes and intervals of the Major Pentatonic Scale in the key of A.


» The practice section includes several A Major Pentatonic Scale guitar tabs denoting the scale in various fingerings and positions. Each tab lists the notes proceeding from the tonic (A), through each note of the scale and descending back to the tonic. Select a tablature from the menu at the bottom of the tab section for a variation of the A Major Pentatonic Scale to practice.


» The guitar fretboard animation for the A Major Pentatonic Scale illustrates the notes of the scale in ascending order by octave, it shows each of the playable notes of the scale on the fretboard, (A, C , D , F , G), by octave. After getting comfortable with a variation of the A Major Pentatonic Scale from the tab section, watch the animation while practicing to see how it coheres with the scale pattern across the fretboard. You can see how each of the notes of the A Major Pentatonic Scale has additional unison and octave notes on the guitar that can be incorporated into your melody.