Guitar Scale, key of B (Natural) Minor




Intervals of the (B) Minor Scale are: W-H-W-W-W-W-H steps.

The notes of the B Minor Scale are: (B  ) (C) (D  ) (E  ) (F) (G  ) (A  ).


e|----------------------------------------------------------------------------------
B|----------------------------------------------------------------------------------
G|--------------------2--4--'--4--2-------------------------------------------------
D|-----------2--4--5-----------------5--4--2----------------------------------------
A|--2--4--5-----------------------------------5--4--2-------------------------------
E|----------------------------------------------------------------------------------


    B Min Scale Tab: (1a)1b)1c)1d)1e)1f)1g)1h)1i)(2a)2b)2c)2d)2e)2f)2g)(3a)3b)(0a)0b)

e|----------------------------------------------------------------------------------
B|----------------------------------------------------------------------------------
G|-----------------------4--'--4----------------------------------------------------
D|--------------4--5--7-----------7--5--4-------------------------------------------
A|-----4--5--7-----------------------------7--5--4----------------------------------
E|--7-----------------------------------------------7-------------------------------


    B Min Scale Tab: (1a)1b)1c)1d)1e)1f)1g)1h)1i)(2a)2b)2c)2d)2e)2f)2g)(3a)3b)(0a)0b)

e|----------------------------------------------------------------------------------
B|----------------------------------------------------------------------------------
G|----------------------------------------------------------------------------------
D|----------------------7--9--'--9--7-----------------------------------------------
A|------------7--9--10-----------------10--9--7-------------------------------------
E|--7--9--10-------------------------------------10--9--7---------------------------


    B Min Scale Tab: (1a)1b)1c)1d)1e)1f)1g)1h)1i)(2a)2b)2c)2d)2e)2f)2g)(3a)3b)(0a)0b)

e|----------------------------------------------------------------------------------
B|----------------------------------------------------------------------------------
G|----------------------------------------------------------------------------------
D|---------------------------9--'--9------------------------------------------------
A|----------------9--10--12-----------12--10--9-------------------------------------
E|--7--9--10--12---------------------------------12--10--9--7-----------------------


    B Min Scale Tab: (1a)1b)1c)1d)1e)1f)1g)1h)1i)(2a)2b)2c)2d)2e)2f)2g)(3a)3b)(0a)0b)

e|----------------------------------------------------------------------------------
B|----------------------------------------------------------------------------------
G|----------------------------------------------------------------------------------
D|----------------------------------------------------------------------------------
A|------------------------12--14--'--14--12-----------------------------------------
E|--7--9--10--12--14--15---------------------15--14--12--10--9--7-------------------


    B Min Scale Tab: (1a)1b)1c)1d)1e)1f)1g)1h)1i)(2a)2b)2c)2d)2e)2f)2g)(3a)3b)(0a)0b)

e|----------------------------------------------------------------------------------
B|-----------------------0--'--0----------------------------------------------------
G|-----------------0--2-----------2--0----------------------------------------------
D|--------0--2--4-----------------------4--2--0-------------------------------------
A|--2--4-----------------------------------------4--2-------------------------------
E|----------------------------------------------------------------------------------


    B Min Scale Tab: (1a)1b)1c)1d)1e)1f)1g)1h)1i)(2a)2b)2c)2d)2e)2f)2g)(3a)3b)(0a)0b)

e|----------------------------------------------------------------------------------
B|----------------------------------------------------------------------------------
G|----------------------------------------------------------------------------------
D|----------------------------------------------------------------------------------
A|--2--4--5--7--9--10--12--14--'--14--12--10--9--7--5--4--2-------------------------
E|----------------------------------------------------------------------------------


    B Min Scale Tab: (1a)1b)1c)1d)1e)1f)1g)1h)1i)(2a)2b)2c)2d)2e)2f)2g)(3a)3b)(0a)0b)

e|----------------------------------------------------------------------------------
B|----------------------------------------------------------------------------------
G|----------------------------------------------------------------------------------
D|--------------4--5--7--9--'--9--7--5--4-------------------------------------------
A|--2--4--5--7-----------------------------7--5--4--2-------------------------------
E|----------------------------------------------------------------------------------


    B Min Scale Tab: (1a)1b)1c)1d)1e)1f)1g)1h)1i)(2a)2b)2c)2d)2e)2f)2g)(3a)3b)(0a)0b)

e|----------------------------------------------------------------------------------
B|----------------------------------------------------------------------------------
G|----------------------------------------------------------------------------------
D|------------2--4--5--7--9--'--9--7--5--4--2---------------------------------------
A|----------------------------------------------------------------------------------
E|--7--9--10-----------------------------------10--9--7-----------------------------


    B Min Scale Tab: (1a)1b)1c)1d)1e)1f)1g)1h)1i)(2a)2b)2c)2d)2e)2f)2g)(3a)3b)(0a)0b)

e|----------------------------------------------------------------------------------
B|------------------------10--12--'--12--10-----------------------------------------
G|-------------9--11--12---------------------12--11--9------------------------------
D|--9--11--12-------------------------------------------12--11--9-------------------
A|----------------------------------------------------------------------------------
E|----------------------------------------------------------------------------------


    B Min Scale Tab: (1a)1b)1c)1d)1e)1f)1g)1h)1i)(2a)2b)2c)2d)2e)2f)2g)(3a)3b)(0a)0b)

e|----------------------------------------------------------------------------------
B|------------------------------12--'--12-------------------------------------------
G|------------------11--12--14-------------14--12--11-------------------------------
D|------11--12--14-------------------------------------14--12--11-------------------
A|--14-------------------------------------------------------------14---------------
E|----------------------------------------------------------------------------------


    B Min Scale Tab: (1a)1b)1c)1d)1e)1f)1g)1h)1i)(2a)2b)2c)2d)2e)2f)2g)(3a)3b)(0a)0b)

e|------------------------7--'--7---------------------------------------------------
B|--------------7--8--10-----------10--8--7-----------------------------------------
G|-----6--7--9-------------------------------9--7--6--------------------------------
D|--9-------------------------------------------------9-----------------------------
A|----------------------------------------------------------------------------------
E|----------------------------------------------------------------------------------


    B Min Scale Tab: (1a)1b)1c)1d)1e)1f)1g)1h)1i)(2a)2b)2c)2d)2e)2f)2g)(3a)3b)(0a)0b)

e|--------------------5--7--'--7--5-------------------------------------------------
B|-----------5--7--8-----------------8--7--5----------------------------------------
G|--4--6--7-----------------------------------7--6--4-------------------------------
D|----------------------------------------------------------------------------------
A|----------------------------------------------------------------------------------
E|----------------------------------------------------------------------------------


    B Min Scale Tab: (1a)1b)1c)1d)1e)1f)1g)1h)1i)(2a)2b)2c)2d)2e)2f)2g)(3a)3b)(0a)0b)

e|-----------0--2--3--5--7--'--7--5--3--2--0----------------------------------------
B|--0--2--3-----------------------------------3--2--0-------------------------------
G|----------------------------------------------------------------------------------
D|----------------------------------------------------------------------------------
A|----------------------------------------------------------------------------------
E|----------------------------------------------------------------------------------


    B Min Scale Tab: (1a)1b)1c)1d)1e)1f)1g)1h)1i)(2a)2b)2c)2d)2e)2f)2g)(3a)3b)(0a)0b)

e|----------------------------------------------------------------------------------
B|--0--2--3--5--7--8--10--12--'--12--10--8--7--5--3--2--0---------------------------
G|----------------------------------------------------------------------------------
D|----------------------------------------------------------------------------------
A|----------------------------------------------------------------------------------
E|----------------------------------------------------------------------------------


    B Min Scale Tab: (1a)1b)1c)1d)1e)1f)1g)1h)1i)(2a)2b)2c)2d)2e)2f)2g)(3a)3b)(0a)0b)

e|-------------0--2--3--5--7--'--7--5--3--2--0--------------------------------------
B|----------------------------------------------------------------------------------
G|----------------------------------------------------------------------------------
D|--9--11--12-----------------------------------12--11--9---------------------------
A|----------------------------------------------------------------------------------
E|----------------------------------------------------------------------------------


    B Min Scale Tab: (1a)1b)1c)1d)1e)1f)1g)1h)1i)(2a)2b)2c)2d)2e)2f)2g)(3a)3b)(0a)0b)

e|--------------12--14--15--+--+--'--+--+--15--14--12-------------------------------
B|--12--14--15---------------------------------------15--14--12---------------------
G|----------------------------------------------------------------------------------
D|----------------------------------------------------------------------------------
A|----------------------------------------------------------------------------------
E|----------------------------------------------------------------------------------


    B Min Scale Tab: (1a)1b)1c)1d)1e)1f)1g)1h)1i)(2a)2b)2c)2d)2e)2f)2g)(3a)3b)(0a)0b)

e|--7--9--10--12--14--15--+--+--'--+--+--15--14--12--10--9--7-----------------------
B|----------------------------------------------------------------------------------
G|----------------------------------------------------------------------------------
D|----------------------------------------------------------------------------------
A|----------------------------------------------------------------------------------
E|----------------------------------------------------------------------------------


    B Min Scale Tab: (1a)1b)1c)1d)1e)1f)1g)1h)1i)(2a)2b)2c)2d)2e)2f)2g)(3a)3b)(0a)0b)

e|----------------------------------------------------------------------------------
B|----------------------------------------------------------------------------------
G|----------------------------------------------------------------------------------
D|----------------------------------------------------------------------------------
A|--2--0-----------------------------------------0--2-------------------------------
E|--------3--2--0--+--+--+--'--+--+--+--0--2--3-------------------------------------


    B Min Scale Tab: (1a)1b)1c)1d)1e)1f)1g)1h)1i)(2a)2b)2c)2d)2e)2f)2g)(3a)3b)(0a)0b)

e|----------------------------------------------------------------------------------
B|----------------------------------------------------------------------------------
G|----------------------------------------------------------------------------------
D|----------------------------------------------------------------------------------
A|----------------------------------------------------------------------------------
E|--7--5--3--2--0--+--+--+--'--+--+--+--0--2--3--5--7-------------------------------


    B Min Scale Tab: (1a)1b)1c)1d)1e)1f)1g)1h)1i)(2a)2b)2c)2d)2e)2f)2g)(3a)3b)(0a)0b)


The B Minor Scale is the aeolian mode of the D Major Scale, its tonic is two notes lower on the major scale than the D Maj scale tonic. For the Minor Scale in the key of B, the distances on the guitar fretboard from each preceding tone to the next higher note of the minor scale are: whole step (B-C), half step (C-D), whole step (D-E), whole step (E-F), half step (F-G), whole step (G-A); whole step (A-B).


The B Minor Scale notes of the chromatic octave can be located by number of steps to the scale tone, and also by their ionian diatonic interval from the key tone; B. Refer to the next line to find any of the notes of the B Minor Scale by its interval from the root note. The notes of the B Minor Scale are, ascending by step/interval from the root note; B- root note (Prime), whole step (Maj2nd) -C, whole-and-a-half step (Min3rd) -D, two-and-a-half steps (Perf4th) -E, three-and-a-half steps (Perf5th) -F, four steps (Aug5th/Min6th) -G, five steps (Min7th) -A.


With the tonic of the Minor Scale on B, the note an octave lower than each of the tones of the scale is (an) interval descending from the tonic: for B: six step (octave), C: five step (aug6/min7), D: four-and-a-half step (maj6), E: three and a half step (perf5), F: two and a half step (perf4), G: two step (maj3), A: whole step (maj2). This descending interval from the tonic (B) locates the note an octave lower in pitch than the tone of the B Major Scale listed.




This easy guitar scale reference details the intervals and notes of the B Minor Scale at a glance:
» The text on the practice page lists the notes and intervals of the Minor Scale in the key of B.


» The practice section includes several B Minor Scale guitar tabs denoting the scale in various fingerings and positions. Each tab lists the notes proceeding from the tonic (B), through each note of the scale and descending back to the tonic. Select a tablature from the menu at the bottom of the tab section for a variation of the B Minor Scale to practice.


» The guitar fretboard animation for the B Minor Scale illustrates the notes of the scale in ascending order by octave, it shows each of the playable notes of the scale on the fretboard, (B , C, D , E, F G , A), by octave. After getting comfortable with a variation of the B Minor Scale from the tab section, watch the animation while practicing to see how it coheres with the scale pattern across the fretboard. You can see how each of the notes of the B Minor Scale has additional unison and octave notes on the guitar that can be incorporated into your melody.