Guitar Scale, key of B Pentatonic Minor




Intervals of the (B) Minor Pentatonic Scale are: WH-W-W-WH-W steps.

The notes of the B Minor Pentatonic Scale are: (B  ) (D  ) (E  ) (F) (A  ).


e|----------------------------------------------------------------------------------
B|----------------------------------------------------------------------------------
G|--------------2--4--'--4--2-------------------------------------------------------
D|--------2--4-----------------4--2-------------------------------------------------
A|--2--5-----------------------------5--2-------------------------------------------
E|----------------------------------------------------------------------------------


    B Pentatonic Min Tab: (1a)1b)1c)1d)1e)1f)(2a)2b)2c)2d)2e)2f)2g)2h)(3a)3b)(0a)0b)

e|----------------------------------------------------------------------------------
B|----------------------------------------------------------------------------------
G|----------------------------------------------------------------------------------
D|---------------7--9--'--9--7------------------------------------------------------
A|---------7--9-----------------9--7------------------------------------------------
E|--7--10-----------------------------10--7-----------------------------------------


    B Pentatonic Min Tab: (1a)1b)1c)1d)1e)1f)(2a)2b)2c)2d)2e)2f)2g)2h)(3a)3b)(0a)0b)

e|----------------------------------------------------------------------------------
B|-----------------0--'--0----------------------------------------------------------
G|--------------2-----------2-------------------------------------------------------
D|-----0--2--4-----------------4--2--0----------------------------------------------
A|--2-----------------------------------2-------------------------------------------
E|----------------------------------------------------------------------------------


    B Pentatonic Min Tab: (1a)1b)1c)1d)1e)1f)(2a)2b)2c)2d)2e)2f)2g)2h)(3a)3b)(0a)0b)

e|----------------------------------------------------------------------------------
B|----------------------------------------------------------------------------------
G|----------------------------------------------------------------------------------
D|----------------------------------------------------------------------------------
A|--2--5--7--9--12--14--'--14--12--9--7--5--2---------------------------------------
E|----------------------------------------------------------------------------------


    B Pentatonic Min Tab: (1a)1b)1c)1d)1e)1f)(2a)2b)2c)2d)2e)2f)2g)2h)(3a)3b)(0a)0b)

e|----------------------------------------------------------------------------------
B|----------------------------------------------------------------------------------
G|----------------------------------------------------------------------------------
D|-----------4--7--9--'--9--7--4----------------------------------------------------
A|--2--5--7-----------------------7--5--2-------------------------------------------
E|----------------------------------------------------------------------------------


    B Pentatonic Min Tab: (1a)1b)1c)1d)1e)1f)(2a)2b)2c)2d)2e)2f)2g)2h)(3a)3b)(0a)0b)

e|----------------------------------------------------------------------------------
B|----------------------------------------------------------------------------------
G|----------------------------------------------------------------------------------
D|----------------------------------------------------------------------------------
A|-----------------12--14--'--14--12------------------------------------------------
E|--7--10--12--14---------------------14--12--10--7---------------------------------


    B Pentatonic Min Tab: (1a)1b)1c)1d)1e)1f)(2a)2b)2c)2d)2e)2f)2g)2h)(3a)3b)(0a)0b)

e|--------------5--7--'--7--5-------------------------------------------------------
B|--------5--7-----------------7--5-------------------------------------------------
G|--4--7-----------------------------7--4-------------------------------------------
D|----------------------------------------------------------------------------------
A|----------------------------------------------------------------------------------
E|----------------------------------------------------------------------------------


    B Pentatonic Min Tab: (1a)1b)1c)1d)1e)1f)(2a)2b)2c)2d)2e)2f)2g)2h)(3a)3b)(0a)0b)

e|------------------7--'--7---------------------------------------------------------
B|-----------7--10-----------10--7--------------------------------------------------
G|-----7--9-------------------------9--7--------------------------------------------
D|--9-------------------------------------9-----------------------------------------
A|----------------------------------------------------------------------------------
E|----------------------------------------------------------------------------------


    B Pentatonic Min Tab: (1a)1b)1c)1d)1e)1f)(2a)2b)2c)2d)2e)2f)2g)2h)(3a)3b)(0a)0b)

e|----------------------------------------------------------------------------------
B|----------------10--12--'--12--10-------------------------------------------------
G|---------9--11---------------------11--9------------------------------------------
D|--9--12-----------------------------------12--9-----------------------------------
A|----------------------------------------------------------------------------------
E|----------------------------------------------------------------------------------


    B Pentatonic Min Tab: (1a)1b)1c)1d)1e)1f)(2a)2b)2c)2d)2e)2f)2g)2h)(3a)3b)(0a)0b)

e|----------------------------------------------------------------------------------
B|----------------------12--'--12---------------------------------------------------
G|--------------11--14-------------14--11-------------------------------------------
D|------12--14-----------------------------14--12-----------------------------------
A|--14---------------------------------------------14-------------------------------
E|----------------------------------------------------------------------------------


    B Pentatonic Min Tab: (1a)1b)1c)1d)1e)1f)(2a)2b)2c)2d)2e)2f)2g)2h)(3a)3b)(0a)0b)

e|----------------------------------------------------------------------------------
B|--0--3--5--7--10--12--'--12--10--7--5--3--0---------------------------------------
G|----------------------------------------------------------------------------------
D|----------------------------------------------------------------------------------
A|----------------------------------------------------------------------------------
E|----------------------------------------------------------------------------------


    B Pentatonic Min Tab: (1a)1b)1c)1d)1e)1f)(2a)2b)2c)2d)2e)2f)2g)2h)(3a)3b)(0a)0b)

e|-----------2--5--7--'--7--5--2----------------------------------------------------
B|--0--3--5-----------------------5--3--0-------------------------------------------
G|----------------------------------------------------------------------------------
D|----------------------------------------------------------------------------------
A|----------------------------------------------------------------------------------
E|----------------------------------------------------------------------------------


    B Pentatonic Min Tab: (1a)1b)1c)1d)1e)1f)(2a)2b)2c)2d)2e)2f)2g)2h)(3a)3b)(0a)0b)

e|----------------------------------------------------------------------------------
B|---------------10--12--'--12--10--------------------------------------------------
G|--4--7--9--11---------------------11--9--7--4-------------------------------------
D|----------------------------------------------------------------------------------
A|----------------------------------------------------------------------------------
E|----------------------------------------------------------------------------------


    B Pentatonic Min Tab: (1a)1b)1c)1d)1e)1f)(2a)2b)2c)2d)2e)2f)2g)2h)(3a)3b)(0a)0b)

e|----------------------------------------------------------------------------------
B|-----------------10--12--'--12--10------------------------------------------------
G|-------------11---------------------11--------------------------------------------
D|--9--12--14-----------------------------14--12--9---------------------------------
A|----------------------------------------------------------------------------------
E|----------------------------------------------------------------------------------


    B Pentatonic Min Tab: (1a)1b)1c)1d)1e)1f)(2a)2b)2c)2d)2e)2f)2g)2h)(3a)3b)(0a)0b)

e|--7--10--12--14--+--+--'--+--+--14--12--10--7-------------------------------------
B|----------------------------------------------------------------------------------
G|----------------------------------------------------------------------------------
D|----------------------------------------------------------------------------------
A|----------------------------------------------------------------------------------
E|----------------------------------------------------------------------------------


    B Pentatonic Min Tab: (1a)1b)1c)1d)1e)1f)(2a)2b)2c)2d)2e)2f)2g)2h)(3a)3b)(0a)0b)

e|----------12--14--+--+--'--+--+--14--12-------------------------------------------
B|--12--15---------------------------------15--12-----------------------------------
G|----------------------------------------------------------------------------------
D|----------------------------------------------------------------------------------
A|----------------------------------------------------------------------------------
E|----------------------------------------------------------------------------------


    B Pentatonic Min Tab: (1a)1b)1c)1d)1e)1f)(2a)2b)2c)2d)2e)2f)2g)2h)(3a)3b)(0a)0b)

e|----------------------------------------------------------------------------------
B|----------------------------------------------------------------------------------
G|----------------------------------------------------------------------------------
D|----------------------------------------------------------------------------------
A|----------------------------------------------------------------------------------
E|--7--5--2--0--+--+--'--+--+--0--2--5--7-------------------------------------------


    B Pentatonic Min Tab: (1a)1b)1c)1d)1e)1f)(2a)2b)2c)2d)2e)2f)2g)2h)(3a)3b)(0a)0b)

e|----------------------------------------------------------------------------------
B|----------------------------------------------------------------------------------
G|----------------------------------------------------------------------------------
D|----------------------------------------------------------------------------------
A|--2--0-----------------------------0--2-------------------------------------------
E|--------2--0--+--+--'--+--+--0--2-------------------------------------------------


    B Pentatonic Min Tab: (1a)1b)1c)1d)1e)1f)(2a)2b)2c)2d)2e)2f)2g)2h)(3a)3b)(0a)0b)


The B Minor Pentatonic scale includes the 1st(B) 3rd(D) 4th(E) 5th(Fs) & 7th(A) notes of the Minor Scale (aeolian mode of the major scale). For the Pentatonic Minor Scale in the key of B, the distances on the guitar fretboard from each preceding tone to the next higher note of the minor pentatonic scale are: whole and a half step (B-D), whole step (D-E), whole step (E-Fs), whole and a half step (Fs-A); whole step (A-B).


The B Pentatonic Minor Scale notes of the chromatic octave can be located by number of steps to the scale tone, and also by their ionian diatonic interval from the key tone; B. Refer to the next line to find any of the notes of the B Minor Pentatonic Scale by its interval from the root note. The notes of the B Minor Pentatonic Scale are, ascending by step/interval from the root note; B- root note (Prime), whole-and-a-half step (Aug2/Min3) -D, two-and-a-half steps (Perf4) -E, three-and-a-half steps (Perf5) -Fs, five steps (Aug6/Min7) -A.


With the tonic of the Minor Pentatonic Scale on B, the note an octave lower than each of the tones of the scale is (an) interval descending from the tonic: for B: six step (octave), D: four and a half steps (maj6), E: three and a half steps (perf5), Fs: two and a half steps (perf4), A: whole step (maj2). This descending interval from the tonic (B) locates the note an octave lower in pitch than the tone of the B Minor Pentatonic Scale listed.




This easy guitar scale reference details the intervals and notes of the B Minor Pentatonic Scale at a glance:
» The text on the practice page lists the notes and intervals of the Minor Pentatonic Scale in the key of B.


» The practice section includes several B Minor Pentatonic Scale guitar tabs denoting the scale in various fingerings and positions. Each tab lists the notes proceeding from the tonic (B), through each note of the scale and descending back to the tonic. Select a tablature from the menu at the bottom of the tab section for a variation of the B Minor Pentatonic Scale to practice.


» The guitar fretboard animation for the B Minor Pentatonic Scale illustrates the notes of the scale in ascending order by octave, it shows each of the playable notes of the scale on the fretboard, (B , D , E , F, A), by octave. After getting comfortable with a variation of the B Minor Pentatonic Scale from the tab section, watch the animation while practicing to see how it coheres with the scale pattern across the fretboard. You can see how each of the notes of the B Minor Pentatonic Scale has additional unison and octave notes on the guitar that can be incorporated into your melody.